A Casa das
CIFRAS

Meu jeito de sentir - Bruno e Marrone

Número de visualizações: 1177

Mais músicas de Bruno e Marrone

Versão 1
--------
Bruno e Marrone – Meu jeito de sentir
Introdução – (G,D,Em,D)

G D Em C D
Toda vez que vai sair o sol, eu estou, esperando por você aqui meu amor
G D Em C D
A distancia não consegue nunca, afastar, a esperança de mais uma vez poder te amar
(Refrão)
...............................................................................................................................................................................................................
G D Em C D G
Só você, só você que conhece meu jeito de sentir, meu jeito de sorrir até meu jeito de
D G D C G
chorar, só você, que conhece amor, só você, sabe bem quem sou.
................................................................................................................................................................................................................
(Ultima parte, repete 2X) Só você, meu amor, só você, sabe bem quem sou.
................................................................................................................................................................................................................
G D Em C D
Quando estou sozinho em casa, fico a pensar, se existe outro alguém tomando meu lugar.
G D Em C D
Se um dia alguma coisa triste acontecer, o que existe em nós, só deus consegue
desfazer.
G D Em C D
Quando o fim do dia chega, só penso em te ver, o meu coração sozinho grita, por você
G D Em C D
Nada nesse mundo vai fazer-me te esquecer, mesmo se um dia por outro amor eu me
perder.

Raphael lopes Santana – Uberlândia - MG Meu E-mail:mailto:rlopes129@hotmail.com


Versão 2
--------
Bruno e Marrone(Acústico ao vivo)com solo
Meu jeito de sentir
Introdução (G,D,Em,D)


Introdução G
e|--7--8--7-5-3/5---3-----2-0--2-3-2--3-5-8-7-5--3-|
B|--8--8--8-------5---1/3------------------------3-|
G|--7--7--7--------------------------------------0-|
D|-------------------------------------------------|
A|-------------------------------------------------|
E|-------------------------------------------------|

G D/F# Em C D
Toda vez que vai sair o sol, eu estou, esperando por você aqui meu amor
G D/F# Em C D
A distancia não consegue nunca, afastar, a esperança de mais uma vez poder te amar

(Refrão)

G D/F# Em C D G
Só você, só você que conhece meu jeito de sentir, meu jeito de sorrir até meu jeito de
D/F# G D/F# C D G
chorar, só você, que conhece amor, só você, sabe bem quem sou.


Repete Introdução

e|--7--8--7-5-3/5---3-----2-0--2-3-2--3-5-8-7-5-3-|
B|--8--8--8-------5---1/3-------------------------|
G|--7--7--7---------------------------------------|
D|------------------------------------------------|
A|------------------------------------------------|
E|------------------------------------------------|


G D/F# Em C Am D
Quando estou sozinho em casa, fico a pensar, se existe outro alguém tomando meu lugar.
G D/F# Em C Am D
Se um dia alguma coisa triste acontecer, o que existe em nós, só deus consegue
desfazer.
G D/F# Em C D G
Só você, só você que conhece meu jeito de sentir, meu jeito de sorrir até meu jeito de
D/F# G D/F# C D G
chorar, só você, que conhece amor, só você, sabe bem quem sou.

Repete Introdução

e|--7--8--7-5-3/5---3-----2-0--2-3-2--3-5-8-7-5-3-|
B|--8--8--8-------5---1/3-------------------------|
G|--7--7--7---------------------------------------|
D|------------------------------------------------|
A|------------------------------------------------|
E|------------------------------------------------|

G D/F# Em C Am D
Quando o fim do dia chega, só penso em te ver, o meu coração sozinho grita, por você
G D/F# Em C Am D
Nada nesse mundo vai fazer-me te esquecer, mesmo se um dia por outro amor eu me
perder.
|G D/F# Em C D G
2x|Só você, só você que conhece meu jeito de sentir, meu jeito de sorrir até meu jeito de
| D/F# G D/F# C D G
|chorar, só você, que conhece amor, só você, sabe bem quem sou.


Victor Hugo Kanan
e-mai: victorhugokanan@bol.com.br


 

 

Busca Cifras: